Tab Guitar SUM 41 - Screaming Bloody Murder

Diposkan oleh Java Multi Grosir (JMG) Group on Rabu, 26 Januari 2011

Lyric, Tab Guitar, Kunci gitar, Chords Guitar, Kord Gitar SUM 41 - Screaming Bloody Murder :

Tuning: Drop D

Intro (Clean)
e|---------------------------------------------------------------------------|
B|---------------------------------------------------------------------------|
G|-5-~--4-~------------8-~---------------------------------------------------|
D|-5-~--5-~--1-~--5-~--8-~--3-~--6-~--5-~------------------------------------|
A|-3-~--2-~--3-~--5-~--6-~--3-~--6-~--5-~------------------------------------|
D|----------------5-~-------3-~--6-~--5-~------------------------------------|


lead riff (distortion)
e|------------------------------------------------------------------------------------------|
B|------------------------------------------------------------------------------------------|
G|------------------------------------------------------------------------------------------|
D|------------------------------------------------------------------------------------------|
A|-11-10----10-------11-10----10-------11-10----10-------8h10-------10h11-------11h13-------|
D|-------10----10-10-------10----10-10-------10----10-10------10-10-------10-10-------10-10-|


Verse
e|-----------------------------------------------------------------------------------|
B|-----------------------------------------------------------------------------------|
G|-5---------------------------------------------------------------------------------|
D|-5-5-5-5-5-5-5-5-5-5-5-5-5-5-5-5--6------------------------------------------------|
A|-3-3-3-3-3-3-3-3-3-3-3-3-3-3-3-3--6-6-6-6-6-6-6-6-6-6-6-6-6-6-6-6------------------|
D|----------------------------------6-6-6-6-6-6-6-6-6-6-6-6-6-6-6-6------------------|
. . . . . . . . . . . . . . . . . . . . . . . . . . . . . .


e|---------------------------------------------------------------------------|
B|---------------------------------------------------------------------------|
G|---------------------------------------------------------------------------|
D|-1--------------------------------5----------------------------------------|
A|-1-1-1-1-1-1-1-1-1-1-1-1-1-1-1-1--5-5-5-5-5-5-5-5-5-5-5-5-5-5-5-5----------|
D|-1-1-1-1-1-1-1-1-1-1-1-1-1-1-1-1--5-5-5-5-5-5-5-5-5-5-5-5-5-5-5-5----------|
. . . . . . . . . . . . . . . . . . . . . . . . . . . . . .

Chorus
e|---------------------------------------------------------------------------|
B|---------------------------------------------------------------------------|
G|-----------------------------------5-5-5-5-5-5-5-5-------------------------|
D|-1-1-1-1-1-1-1-1--3-3-3-3-3-3-3-3--5-5-5-5-5-5-5-5--6-6-6-6-6-6-6-6--------|
A|-1-1-1-1-1-1-1-1--3-3-3-3-3-3-3-3--3-3-3-3-3-3-3-3--6-6-6-6-6-6-6-6--------|
D|-1-1-1-1-1-1-1-1--3-3-3-3-3-3-3-3-------------------6-6-6-6-6-6-6-6--------|


Bridge 1
e|---------------------------------------------------------------------------|
B|---------------------------------------------------------------------------|
G|-5-xxxx-5-xxxx-5-xxxx------------------------------------------------------|
D|-5-xxxx-5-xxxx-5-xxxx--5--6------------------------------------------------|
A|-3-xxxx-3-xxxx-3-xxxx--5--6------------------------------------------------|
D|---xxxx---xxxx---xxxx--5--6------------------------------------------------|


Solo!!!
e|-----------------------------------------------------------------------------16-16-------16-16--|
B|8-8-----8-8-----6-6-----6-6-----8--8--8-8--8--6--4~~~~---8-8-8-8-8-8-6/13b15-------13b15------13|
G|----8-8-----8-8-----7-7-----7-7-----------------------------------------------------------------|
D|------------------------------------------------------------------------------------------------|
A|------------------------------------------------------------------------------------------------|
D|------------------------------------------------------------------------------------------------|



e|--------------------------------------------------------------------------------------|
B|-16-16--15-15--13-13--11-11--13-13--11-11--8-8--11-11---8-8p4h6-6--8------------------|
G|-----------------------------------------------------------------------4~~~~~~~~~-----|
D|--------------------------------------------------------------------------------------|
A|--------------------------------------------------------------------------------------|
D|--------------------------------------------------------------------------------------|


tremolo picking
e|--------------------------------------------------------------------------------|
B|-/1313131313131313\----/1515151515151515\----/161616161616--18--20~~~~~~~~~~~~~-|
G|--------------------------------------------------------------------------------|
D|--------------------------------------------------------------------------------|
A|--------------------------------------------------------------------------------|
D|--------------------------------------------------------------------------------|


Bridge 2
e|--------------------------------------------------------------------------------------|
B|--------------------------------------------------------------------------------------|
G|-5---5--------------------------------------------------------------------------------|
D|-5---5-----------------------------------1-1-1-1-1-1-1-1--3-3-3-3-3-3-3-3--6-6-6-6~~~-|
A|-3---3--------------------------------x2-1-1-1-1-1-1-1-1--3-3-3-3-3-3-3-3--6-6-6-6~~~-|
D|-------5h6p5h6p5h6p5-3h5p3h5p3h5p3-------1-1-1-1-1-1-1-1--3-3-3-3-3-3-3-3--6-6-6-6~~~-|