Tab Guitar Foo Fighters - Rope

Diposkan oleh Java Multi Grosir (JMG) Group on Selasa, 08 Maret 2011

Lyric, Tab guitar, Chords Guitar, Kord Gitar Foo Fighters - Rope :

Intro:

/
| e|-------------------------7------------------------------------------|
| B|-------------------------7------------------------------------------|
| G|-7-(7)-(7)-(7)-(7)-(7)---9-(9)-(9)-(9)-(9)-(9)----------------------|
| D|-7-(7)-(7)-(7)-(7)-(7)---9-(9)-(9)-(9)-(9)-(9)----------------------|
| A|-5-(5)-(5)-(5)-(5)-(5)---7-(7)-(7)-(7)-(7)-(7)----------------------|
| E|--------------------------------------------------------------------|
2x |
| e|--------------------------------------------------------------------|
| B|--------------------------------------------------------------------|
| G|-10-(10)-(10)-(10)-(10)-(10)---10-(10)-(10)-(10)-(10)-(10)----------|
| D|-10-(10)-(10)-(10)-(10)-(10)---10-(10)-(10)-(10)-(10)-(10)----------|
| A|-08-(08)-(08)-(08)-(08)-(08)---08-(08)-(08)-(08)-(08)-(08)----------|
| E|--------------------------------------------------------------------|
\

Verse:

e|--------------------------------------------------------------------------|
B|--------------------------------------------------------------------------|
G|-------9-7--------------------11-11-11-11-14-11---------------------------|
D|-9p7-7-----7---9-9-9-9-12-9---11-11-11-11-14-11---------------------------|
A|---------------9-9-9-9-12-9---09-09-09-09-12-09---------------------------|
E|---------------7-7-7-7-10-7-----------------------------------------------|

e|--------------------------------------------------------------------------|
B|--------------------------------------------------------------------------|
G|-7-7-7-7-5-7---7-7-7-7-5-7------------------------------------------------|
D|-7-7-7-7-5-7---7-7-7-7-5-7-7----------------------------------------------|
A|-5-5-5-5-3-5---5-5-5-5-3-5-7----------------------------------------------|
E|---------------------------5----------------------------------------------|

e|--------------------------------------------------------------------------|
B|--------------------------------------------------------------------------|
G|----------------11-11-11-11-14-11-----------------------------------------|
D|-9-9-9-9-12-9---11-11-11-11-14-11-----------------------------------------|
A|-9-9-9-9-12-9---09-09-09-09-12-09-----------------------------------------|
E|-7-7-7-7-10-7-------------------------------------------------------------|

e|--------------------------------------------------------------------------|
B|--------------------------------------------------------------------------|
G|-10-10-10-10-9-10---10-10-10-10-9-10--------9-7---------------------------|
D|-10-10-10-10-9-10---10-10-10-10-9-10--9p7-7-----7-------------------------|
A|-08-08-08-08-7-08---08-08-08-08-7-08--------------------------------------|
E|--------------------------------------------------------------------------|

/
| e|--------------------------------------------------------------------|
| B|--------------------------------------------------------------------|
| G|----------------11-11-11-11-14-11-----------------------------------|
| D|-9-9-9-9-12-9---11-11-11-11-14-11-----------------------------------|
| A|-9-9-9-9-12-9---09-09-09-09-12-09-----------------------------------|
| E|-7-7-7-7-10-7-------------------------------------------------------|
|
| e|--------------------------------------------------------------------|
| B|--------------------------------------------------------------------|
| G|-10-10-10-10-9-10---10-10-10-10-9-10--------------------------------|
| D|-10-10-10-10-9-10---10-10-10-10-9-10-7------------------------------|
| A|-08-08-08-08-7-08---08-08-08-08-7-08-7------------------------------|
| E|-------------------------------------5------------------------------|
2x |
| e|--------------------------------------------------------------------|
| B|--------------------------------------------------------------------|
| G|----------------11-11-11-11-14-11-----------------------------------|
| D|-9-9-9-9-12-9---11-11-11-11-14-11-----------------------------------|
| A|-9-9-9-9-12-9---09-09-09-09-12-09-----------------------------------|
| E|-7-7-7-7-10-7-------------------------------------------------------|
|
| e|--------------------------------------------------------------------|
| B|--------------------------------------------------------------------|
| G|-10-10-10-10-9-10---10-10-10-10-9-10--------9-7---------------------|
| D|-10-10-10-10-9-10---10-10-10-10-9-10--9p7-7-----7-------------------|
| A|-08-08-08-08-7-08---08-08-08-08-7-08--------------------------------|
| E|--------------------------------------------------------------------|
\

e|--------------------------------------------------------------------------|
B|--------------------------------------------------------------------------|
G|----------------11-11-11-11-14-11-----------------------------------------|
D|-9-9-9-9-12-9---11-11-11-11-14-11-----------------------------------------|
A|-9-9-9-9-12-9---09-09-09-09-12-09-----------------------------------------|
E|-7-7-7-7-10-7-------------------------------------------------------------|

e|--------------------------------------------------------------------------|
B|--------------------------------------------------------------------------|
G|-7-7-7-7-5-7---7-7-7-7-5-7------------------------------------------------|
D|-7-7-7-7-5-7---7-7-7-7-5-7-7----------------------------------------------|
A|-5-5-5-5-3-5---5-5-5-5-3-5-7----------------------------------------------|
E|---------------------------5----------------------------------------------|

e|--------------------------------------------------------------------------|
B|--------------------------------------------------------------------------|
G|----------------11-11-11-11-14-11-----------------------------------------|
D|-9-9-9-9-12-9---11-11-11-11-14-11-----------------------------------------|
A|-9-9-9-9-12-9---09-09-09-09-12-09-----------------------------------------|
E|-7-7-7-7-10-7-------------------------------------------------------------|

e|--------------------------------------------------------------------------|
B|--------------------------------------------------------------------------|
G|-10-10-10-10-9-10---10-10-10-10-9-10--------9-7---------------------------|
D|-10-10-10-10-9-10---10-10-10-10-9-10--9p7-7-----7-------------------------|
A|-08-08-08-08-7-08---08-08-08-08-7-08--------------------------------------|
E|--------------------------------------------------------------------------|

Chorus:

e|--------------------------------------------------------------------------|
B|--------------------------------------------------------------------------|
G|-12-12-12-12-12-12---9-9-9-9-9-9---11-11-11-11-11---7-7-6/7~--------------|
D|-12-12-12-12-12-12---9-9-9-9-9-9---11-11-11-11-11---7-7-------------------|
A|-10-10-10-10-10-10---7-7-7-7-7-7---09-09-09-09-09---5-5-------------------|
E|--------------------------------------------------------------------------|

e|--------------------------------------------------------------------------|
B|--------------------------------------------------------------------------|
G|-12-12-12-12-12-12---9-9-9-9-9-9---11-11-11-11-11---7-7-6/7~--------------|
D|-12-12-12-12-12-12---9-9-9-9-9-9---11-11-11-11-11---7-7-------------------|
A|-10-10-10-10-10-10---7-7-7-7-7-7---09-09-09-09-09---5-5-------------------|
E|--------------------------------------------------------------------------|

e|--------------------------------------------------------------------------|
B|--------------------------------------------------------------------------|
G|-12-12-12-12-12-12---9-9-9-9-9-9---11-11-11-11-11---7-7-6/7~--------------|
D|-12-12-12-12-12-12---9-9-9-9-9-9---11-11-11-11-11---7-7-------------------|
A|-10-10-10-10-10-10---7-7-7-7-7-7---09-09-09-09-09---4-4-------------------|
E|--------------------------------------------------------------------------|

e|--------------------------------------------------------------------------|
B|--------------------------------------------------------------------------|
G|-4-4-4-4-4-4---6-6-6-6-6-6---7-7-7-7-7-7---11-11-11-11-11-11--------------|
D|-4-4-4-4-4-4---6-6-6-6-6-6---7-7-7-7-7-7---11-11-11-11-11-11--------------|
A|-2-2-2-2-2-2---3-3-3-3-3-3---4-4-4-4-4-4---09-09-09-09-09-09--------------|
E|--------------------------------------------------------------------------|

First solo:

e|--------------------------------------------------------------------------|
B|--------------------------------------------------------------------------|
G|-----------7~---7-9--10~---10-12--14~-------------------------------------|
D|-9---9-11-----------------------------------------------------------------|
A|--------------------------------------------------------------------------|
E|--------------------------------------------------------------------------|

e|--------------------------------------------------------------------------|
B|------------------------------13------------------------------------------|
G|-----------7~---7-9--10~---10-----14~-------------------------------------|
D|-9---9-11-----------------------------------------------------------------|
A|--------------------------------------------------------------------------|
E|--------------------------------------------------------------------------|

Verse

Chorus

Second solo:

/
| e|---------------------------------------------------------------------|
| B|---------------------------------------------------------------------|
4 | G|-------7--9----------------------------------------------------------|
x | D|-9-7-9-7--9----------------------------------------------------------|
| A|-9-7-9-5--7----------------------------------------------------------|
| E|-7-5-7---------------------------------------------------------------|
\

/
| e|---------------------------------------------------------------------|
| B|---------------------------------------------------------------------|
8 | G|-------7--9----------------------------------------------------------|
x | D|-9-7-9-7--9--5--5--7---2-2-------------------------------------------|
| A|-9-7-9-5--7--5--5--7---2-2-------------------------------------------|
| E|-7-5-7-------3--3--5---0-0-------------------------------------------|
\

Chorus

Outro:

e|-------------------------7------------------------------------------------|
B|-------------------------7------------------------------------------------|
G|-7-(7)-(7)-(7)-(7)-(7)---9-(9)-(9)-(9)-(9)-(9)----------------------------|
D|-7-(7)-(7)-(7)-(7)-(7)---9-(9)-(9)-(9)-(9)-(9)----------------------------|
A|-5-(5)-(5)-(5)-(5)-(5)---7-(7)-(7)-(7)-(7)-(7)----------------------------|
E|--------------------------------------------------------------------------|

e|--------------------------------------------------------------------------|
B|--------------------------------------------------------------------------|
G|-10-(10)-(10)-(10)-(10)-(10)---10-(10)-(10)-(10)-(10)-(10)----------------|
D|-10-(10)-(10)-(10)-(10)-(10)---10-(10)-(10)-(10)-(10)-(10)----------------|
A|-08-(08)-(08)-(08)-(08)-(08)---08-(08)-(08)-(08)-(08)-(08)----------------|
E|--------------------------------------------------------------------------|

e|--------------------------------------------------------------------------|
B|--------------------------------------------------------------------------|
G|-------9-7--------------------11-11-11-11-14-11---------------------------|
D|-9p7-7-----7---9-9-9-9-12-9---11-11-11-11-14-11---------------------------|
A|---------------9-9-9-9-12-9---09-09-09-09-12-09---------------------------|
E|---------------7-7-7-7-10-7-----------------------------------------------|

e|--------------------------------------------------------------------------|
B|--------------------------------------------------------------------------|
G|-10-10-10-10-9-10---10-10-10-10-9-10--------9-7---------------------------|
D|-10-10-10-10-9-10---10-10-10-10-9-10--9p7-7-----7-------------------------|
A|-08-08-08-08-7-08---08-08-08-08-7-08--------------------------------------|
E|--------------------------------------------------------------------------|